ISO-10303-21;
HEADER;
FILE_DESCRIPTION (( 'STEP AP203' ),
    '1' );
FILE_NAME ('2.12.08.M4.STEP',
    '2014-06-24T02:21:59',
    ( 'USER' ),
    ( 'Microsoft' ),
    'SwSTEP 2.0',
    'SolidWorks 2012',
    '' );
FILE_SCHEMA (( 'CONFIG_CONTROL_DESIGN' ));
ENDSEC;

DATA;
#1 = ADVANCED_FACE ( 'NONE', ( #193, #251 ), #60, .F. ) ;
#2 = ADVANCED_FACE ( 'NONE', ( #194 ), #65, .F. ) ;
#3 = ADVANCED_FACE ( 'NONE', ( #195 ), #118, .F. ) ;
#4 = ADVANCED_FACE ( 'NONE', ( #191, #187 ), #117, .F. ) ;
#5 = ADVANCED_FACE ( 'NONE', ( #188 ), #110, .F. ) ;
#6 = ADVANCED_FACE ( 'NONE', ( #190 ), #197, .F. ) ;
#7 = ADVANCED_FACE ( 'NONE', ( #185 ), #198, .F. ) ;
#8 = ADVANCED_FACE ( 'NONE', ( #186 ), #101, .T. ) ;
#9 = PRODUCT ( '2.12.08.M4', '2.12.08.M4', '', ( #292 ) ) ;
#10 = PERSON ( 'Î´Ö¸¶¨', 'Î´Ö¸¶¨', 'Î´Ö¸¶¨', ('Î´Ö¸¶¨'), ('Î´Ö¸¶¨'), ('Î´Ö¸¶¨') ) ;
#11 = PRODUCT_DEFINITION_SHAPE ( 'NONE', 'NONE',  #21 ) ;
#12 = DESIGN_CONTEXT ( 'detailed design', #294, 'design' ) ;
#13 = CC_DESIGN_PERSON_AND_ORGANIZATION_ASSIGNMENT ( #167, #302, ( #16 ) ) ;
#14 = CC_DESIGN_APPROVAL ( #15, ( #16 ) ) ;
#15 = APPROVAL ( #300, 'Î´Ö¸¶¨' ) ;
#16 = PRODUCT_DEFINITION_FORMATION_WITH_SPECIFIED_SOURCE ( 'ÈÎºÎ', '', #9, .NOT_KNOWN. ) ;
#17 = CC_DESIGN_DATE_AND_TIME_ASSIGNMENT ( #139, #299, ( #21 ) ) ;
#18 = CC_DESIGN_PERSON_AND_ORGANIZATION_ASSIGNMENT ( #159, #298, ( #21 ) ) ;
#19 = CC_DESIGN_APPROVAL ( #20, ( #21 ) ) ;
#20 = APPROVAL ( #296, 'Î´Ö¸¶¨' ) ;
#21 = PRODUCT_DEFINITION ( 'Î´Öª', '', #16, #12 ) ;
#22 = CC_DESIGN_PERSON_AND_ORGANIZATION_ASSIGNMENT ( #215, #293, ( #9 ) ) ;
#23 =( GEOMETRIC_REPRESENTATION_CONTEXT ( 3 ) GLOBAL_UNCERTAINTY_ASSIGNED_CONTEXT ( ( #55 ) ) GLOBAL_UNIT_ASSIGNED_CONTEXT ( ( #284, #285, #286 ) ) REPRESENTATION_CONTEXT ( 'NONE', 'WORKASPACE' ) );
#24 = AXIS2_PLACEMENT_3D ( 'NONE', #282, #281, #266 ) ;
#25 = AXIS2_PLACEMENT_3D ( 'NONE', #70, #69, #68 ) ;
#26 = AXIS2_PLACEMENT_3D ( 'NONE', #280, #290, #291 ) ;
#27 = AXIS2_PLACEMENT_3D ( 'NONE', #85, #84, #83 ) ;
#28 = AXIS2_PLACEMENT_3D ( 'NONE', #103, #99, #98 ) ;
#29 = AXIS2_PLACEMENT_3D ( 'NONE', #102, #104, #109 ) ;
#30 = AXIS2_PLACEMENT_3D ( 'NONE', #105, #106, #114 ) ;
#31 = AXIS2_PLACEMENT_3D ( 'NONE', #92, #91, #90 ) ;
#32 = AXIS2_PLACEMENT_3D ( 'NONE', #113, #108, #107 ) ;
#33 = AXIS2_PLACEMENT_3D ( 'NONE', #121, #112, #111 ) ;
#34 = AXIS2_PLACEMENT_3D ( 'NONE', #64, #116, #115 ) ;
#35 = AXIS2_PLACEMENT_3D ( 'NONE', #73, #120, #119 ) ;
#36 = AXIS2_PLACEMENT_3D ( 'NONE', #63, #77, #67 ) ;
#37 = EDGE_CURVE ( 'NONE', #182, #175, #180, .T. ) ;
#38 = EDGE_CURVE ( 'NONE', #173, #183, #196, .T. ) ;
#39 = EDGE_CURVE ( 'NONE', #179, #189, #181, .T. ) ;
#40 = EDGE_CURVE ( 'NONE', #175, #178, #199, .T. ) ;
#41 = EDGE_CURVE ( 'NONE', #189, #179, #166, .T. ) ;
#42 = EDGE_CURVE ( 'NONE', #183, #175, #168, .T. ) ;
#43 = EDGE_CURVE ( 'NONE', #184, #177, #135, .T. ) ;
#44 = EDGE_CURVE ( 'NONE', #178, #177, #136, .T. ) ;
#45 = EDGE_CURVE ( 'NONE', #174, #184, #154, .T. ) ;
#46 = EDGE_CURVE ( 'NONE', #172, #189, #205, .T. ) ;
#47 = EDGE_CURVE ( 'NONE', #176, #172, #211, .T. ) ;
#48 = EDGE_CURVE ( 'NONE', #177, #182, #200, .T. ) ;
#49 = EDGE_CURVE ( 'NONE', #173, #182, #212, .T. ) ;
#50 = EDGE_CURVE ( 'NONE', #184, #173, #216, .T. ) ;
#51 = EDGE_CURVE ( 'NONE', #176, #179, #236, .T. ) ;
#52 = EDGE_CURVE ( 'NONE', #172, #176, #206, .T. ) ;
#53 = EDGE_CURVE ( 'NONE', #174, #178, #204, .T. ) ;
#54 = EDGE_CURVE ( 'NONE', #183, #174, #218, .T. ) ;
#55 = UNCERTAINTY_MEASURE_WITH_UNIT (LENGTH_MEASURE( 1.000000000000000100E-005 ), #284, 'distance_accuracy_value', 'NONE');
#56 = MANIFOLD_SOLID_BREP ( 'M4 ÂÝÎÆ¿×1', #246 ) ;
#57 = ADVANCED_BREP_SHAPE_REPRESENTATION ( '2.12.08.M4', ( #56, #26 ), #23 ) ;
#58 = CARTESIAN_POINT ( 'NONE',  ( -7.500000000000000000, -785.1153228810079600, -2174.955231443991100 ) ) ;
#59 = DIRECTION ( 'NONE',  ( -0.0000000000000000000, -1.000000000000000000, -0.0000000000000000000 ) ) ;
#60 = PLANE ( 'NONE',  #36 ) ;
#61 = CARTESIAN_POINT ( 'NONE',  ( -15.00000000000000000, -788.1153228810079600, -2180.805231443991000 ) ) ;
#62 = DIRECTION ( 'NONE',  ( 1.000000000000000000, -0.0000000000000000000, -0.0000000000000000000 ) ) ;
#63 = CARTESIAN_POINT ( 'NONE',  ( -15.00000000000000000, -788.1153228810079600, -2165.805231443991500 ) ) ;
#64 = CARTESIAN_POINT ( 'NONE',  ( -15.00000000000000000, -788.1153228810079600, -2165.805231443991500 ) ) ;
#65 = PLANE ( 'NONE',  #35 ) ;
#66 = CARTESIAN_POINT ( 'NONE',  ( -15.00000000000000000, -788.1153228810079600, -2180.805231443991000 ) ) ;
#67 = DIRECTION ( 'NONE',  ( 0.0000000000000000000, -0.0000000000000000000, 1.000000000000000000 ) ) ;
#68 = DIRECTION ( 'NONE',  ( 0.0000000000000000000, 0.0000000000000000000, 1.000000000000000000 ) ) ;
#69 = DIRECTION ( 'NONE',  ( 0.0000000000000000000, 1.000000000000000000, 0.0000000000000000000 ) ) ;
#70 = CARTESIAN_POINT ( 'NONE',  ( -7.500000000000000000, -788.1153228810079600, -2173.305231443991000 ) ) ;
#71 = CARTESIAN_POINT ( 'NONE',  ( 0.0000000000000000000, -788.1153228810079600, -2180.805231443991000 ) ) ;
#72 = CARTESIAN_POINT ( 'NONE',  ( -15.00000000000000000, -785.1153228810079600, -2165.805231443991500 ) ) ;
#73 = CARTESIAN_POINT ( 'NONE',  ( -15.00000000000000000, -785.1153228810079600, -2165.805231443991500 ) ) ;
#74 = DIRECTION ( 'NONE',  ( 1.000000000000000000, -0.0000000000000000000, -0.0000000000000000000 ) ) ;
#75 = DIRECTION ( 'NONE',  ( -0.0000000000000000000, 1.000000000000000000, -0.0000000000000000000 ) ) ;
#76 = CARTESIAN_POINT ( 'NONE',  ( -7.500000000000000000, -785.1153228810079600, -2171.655231443990900 ) ) ;
#77 = DIRECTION ( 'NONE',  ( 0.0000000000000000000, 1.000000000000000000, 0.0000000000000000000 ) ) ;
#78 = DIRECTION ( 'NONE',  ( -0.0000000000000000000, -0.0000000000000000000, -1.000000000000000000 ) ) ;
#79 = DIRECTION ( 'NONE',  ( -0.0000000000000000000, -1.000000000000000000, -0.0000000000000000000 ) ) ;
#80 = DIRECTION ( 'NONE',  ( -0.0000000000000000000, -0.0000000000000000000, -1.000000000000000000 ) ) ;
#81 = DIRECTION ( 'NONE',  ( 1.000000000000000000, -0.0000000000000000000, -0.0000000000000000000 ) ) ;
#82 = CARTESIAN_POINT ( 'NONE',  ( -15.00000000000000000, -785.1153228810079600, -2180.805231443991000 ) ) ;
#83 = DIRECTION ( 'NONE',  ( 0.0000000000000000000, 0.0000000000000000000, 1.000000000000000000 ) ) ;
#84 = DIRECTION ( 'NONE',  ( -0.0000000000000000000, 1.000000000000000000, -0.0000000000000000000 ) ) ;
#85 = CARTESIAN_POINT ( 'NONE',  ( -7.500000000000000000, -785.1153228810079600, -2173.305231443991000 ) ) ;
#86 = CARTESIAN_POINT ( 'NONE',  ( -15.00000000000000000, -788.1153228810079600, -2165.805231443991500 ) ) ;
#87 = CARTESIAN_POINT ( 'NONE',  ( 0.0000000000000000000, -785.1153228810079600, -2180.805231443991000 ) ) ;
#88 = CARTESIAN_POINT ( 'NONE',  ( -15.00000000000000000, -785.1153228810079600, -2180.805231443991000 ) ) ;
#89 = DIRECTION ( 'NONE',  ( 1.000000000000000000, -0.0000000000000000000, -0.0000000000000000000 ) ) ;
#90 = DIRECTION ( 'NONE',  ( 0.0000000000000000000, 0.0000000000000000000, 1.000000000000000000 ) ) ;
#91 = DIRECTION ( 'NONE',  ( -0.0000000000000000000, 1.000000000000000000, -0.0000000000000000000 ) ) ;
#92 = CARTESIAN_POINT ( 'NONE',  ( -7.500000000000000000, -785.1153228810079600, -2173.305231443991000 ) ) ;
#93 = CARTESIAN_POINT ( 'NONE',  ( 0.0000000000000000000, -785.1153228810079600, -2165.805231443991500 ) ) ;
#94 = DIRECTION ( 'NONE',  ( -0.0000000000000000000, 1.000000000000000000, -0.0000000000000000000 ) ) ;
#95 = DIRECTION ( 'NONE',  ( -0.0000000000000000000, -0.0000000000000000000, 1.000000000000000000 ) ) ;
#96 = CARTESIAN_POINT ( 'NONE',  ( 0.0000000000000000000, -788.1153228810079600, -2165.805231443991500 ) ) ;
#97 = CARTESIAN_POINT ( 'NONE',  ( -15.00000000000000000, -788.1153228810079600, -2165.805231443991500 ) ) ;
#98 = DIRECTION ( 'NONE',  ( 0.0000000000000000000, 0.0000000000000000000, -1.000000000000000000 ) ) ;
#99 = DIRECTION ( 'NONE',  ( 1.000000000000000000, 0.0000000000000000000, 0.0000000000000000000 ) ) ;
#100 = DIRECTION ( 'NONE',  ( -0.0000000000000000000, -0.0000000000000000000, 1.000000000000000000 ) ) ;
#101 = PLANE ( 'NONE',  #28 ) ;
#102 = CARTESIAN_POINT ( 'NONE',  ( -7.500000000000000000, -785.1153228810079600, -2173.305231443991000 ) ) ;
#103 = CARTESIAN_POINT ( 'NONE',  ( 0.0000000000000000000, -788.1153228810079600, -2165.805231443991500 ) ) ;
#104 = DIRECTION ( 'NONE',  ( -0.0000000000000000000, 1.000000000000000000, -0.0000000000000000000 ) ) ;
#105 = CARTESIAN_POINT ( 'NONE',  ( -7.500000000000000000, -785.1153228810079600, -2173.305231443991000 ) ) ;
#106 = DIRECTION ( 'NONE',  ( -0.0000000000000000000, 1.000000000000000000, -0.0000000000000000000 ) ) ;
#107 = DIRECTION ( 'NONE',  ( 1.000000000000000000, 0.0000000000000000000, -0.0000000000000000000 ) ) ;
#108 = DIRECTION ( 'NONE',  ( 0.0000000000000000000, -0.0000000000000000000, 1.000000000000000000 ) ) ;
#109 = DIRECTION ( 'NONE',  ( 0.0000000000000000000, 0.0000000000000000000, 1.000000000000000000 ) ) ;
#110 = PLANE ( 'NONE',  #32 ) ;
#111 = DIRECTION ( 'NONE',  ( 0.0000000000000000000, -0.0000000000000000000, -1.000000000000000000 ) ) ;
#112 = DIRECTION ( 'NONE',  ( 0.0000000000000000000, -1.000000000000000000, 0.0000000000000000000 ) ) ;
#113 = CARTESIAN_POINT ( 'NONE',  ( -15.00000000000000000, -788.1153228810079600, -2180.805231443991000 ) ) ;
#114 = DIRECTION ( 'NONE',  ( 0.0000000000000000000, 0.0000000000000000000, 1.000000000000000000 ) ) ;
#115 = DIRECTION ( 'NONE',  ( 0.0000000000000000000, 0.0000000000000000000, -1.000000000000000000 ) ) ;
#116 = DIRECTION ( 'NONE',  ( 1.000000000000000000, 0.0000000000000000000, 0.0000000000000000000 ) ) ;
#117 = PLANE ( 'NONE',  #33 ) ;
#118 = PLANE ( 'NONE',  #34 ) ;
#119 = DIRECTION ( 'NONE',  ( -1.000000000000000000, 0.0000000000000000000, 0.0000000000000000000 ) ) ;
#120 = DIRECTION ( 'NONE',  ( -0.0000000000000000000, 0.0000000000000000000, -1.000000000000000000 ) ) ;
#121 = CARTESIAN_POINT ( 'NONE',  ( -15.00000000000000000, -785.1153228810079600, -2180.805231443991000 ) ) ;
#122 = ORIENTED_EDGE ( 'NONE', *, *, #50, .F. ) ;
#123 = EDGE_LOOP ( 'NONE', ( #253, #133, #248, #244 ) ) ;
#124 = ORIENTED_EDGE ( 'NONE', *, *, #43, .F. ) ;
#125 = ORIENTED_EDGE ( 'NONE', *, *, #42, .F. ) ;
#126 = EDGE_LOOP ( 'NONE', ( #256, #124, #132, #134 ) ) ;
#127 = ORIENTED_EDGE ( 'NONE', *, *, #48, .T. ) ;
#128 = ORIENTED_EDGE ( 'NONE', *, *, #52, .T. ) ;
#129 = ORIENTED_EDGE ( 'NONE', *, *, #44, .F. ) ;
#130 = EDGE_LOOP ( 'NONE', ( #144, #223, #234, #259 ) ) ;
#131 = ORIENTED_EDGE ( 'NONE', *, *, #41, .F. ) ;
#132 = ORIENTED_EDGE ( 'NONE', *, *, #45, .F. ) ;
#133 = ORIENTED_EDGE ( 'NONE', *, *, #53, .F. ) ;
#134 = ORIENTED_EDGE ( 'NONE', *, *, #53, .T. ) ;
#135 = LINE ( 'NONE', #82, #201 ) ;
#136 = LINE ( 'NONE', #87, #202 ) ;
#137 = CALENDAR_DATE ( 2014, 24, 6 ) ;
#138 = COORDINATED_UNIVERSAL_TIME_OFFSET ( 8, 0, .AHEAD. ) ;
#139 = DATE_AND_TIME ( #146, #142 ) ;
#140 = COORDINATED_UNIVERSAL_TIME_OFFSET ( 8, 0, .AHEAD. ) ;
#141 = APPROVAL_DATE_TIME ( #165, #20 ) ;
#142 = LOCAL_TIME ( 10, 21, 59.00000000000000000, #138 ) ;
#143 = PERSON_AND_ORGANIZATION ( #10, #219 ) ;
#144 = ORIENTED_EDGE ( 'NONE', *, *, #47, .F. ) ;
#145 = APPROVAL_PERSON_ORGANIZATION ( #143, #15, #301 ) ;
#146 = CALENDAR_DATE ( 2014, 24, 6 ) ;
#147 = CALENDAR_DATE ( 2014, 24, 6 ) ;
#148 = COORDINATED_UNIVERSAL_TIME_OFFSET ( 8, 0, .AHEAD. ) ;
#149 = PERSON_AND_ORGANIZATION ( #10, #219 ) ;
#150 = VECTOR ( 'NONE', #89, 1000.000000000000000 ) ;
#151 = PERSON_AND_ORGANIZATION ( #10, #219 ) ;
#152 = DATE_AND_TIME ( #163, #170 ) ;
#153 = PERSON_AND_ORGANIZATION ( #10, #219 ) ;
#154 = LINE ( 'NONE', #88, #203 ) ;
#155 = LOCAL_TIME ( 10, 21, 59.00000000000000000, #148 ) ;
#156 = APPROVAL_DATE_TIME ( #152, #15 ) ;
#157 = APPROVAL_PERSON_ORGANIZATION ( #153, #305, #263 ) ;
#158 = CALENDAR_DATE ( 2014, 24, 6 ) ;
#159 = PERSON_AND_ORGANIZATION ( #10, #219 ) ;
#160 = VECTOR ( 'NONE', #94, 1000.000000000000000 ) ;
#161 = COORDINATED_UNIVERSAL_TIME_OFFSET ( 8, 0, .AHEAD. ) ;
#162 = DATE_AND_TIME ( #158, #155 ) ;
#163 = CALENDAR_DATE ( 2014, 24, 6 ) ;
#164 = LOCAL_TIME ( 10, 21, 59.00000000000000000, #161 ) ;
#165 = DATE_AND_TIME ( #137, #226 ) ;
#166 = CIRCLE ( 'NONE', #27, 1.650000000000151300 ) ;
#167 = PERSON_AND_ORGANIZATION ( #10, #219 ) ;
#168 = LINE ( 'NONE', #86, #150 ) ;
#169 = SHAPE_DEFINITION_REPRESENTATION ( #11, #57 ) ;
#170 = LOCAL_TIME ( 10, 21, 59.00000000000000000, #140 ) ;
#171 = DATE_AND_TIME ( #147, #164 ) ;
#172 = VERTEX_POINT ( 'NONE', #271 ) ;
#173 = VERTEX_POINT ( 'NONE', #270 ) ;
#174 = VERTEX_POINT ( 'NONE', #272 ) ;
#175 = VERTEX_POINT ( 'NONE', #288 ) ;
#176 = VERTEX_POINT ( 'NONE', #273 ) ;
#177 = VERTEX_POINT ( 'NONE', #283 ) ;
#178 = VERTEX_POINT ( 'NONE', #274 ) ;
#179 = VERTEX_POINT ( 'NONE', #268 ) ;
#180 = LINE ( 'NONE', #96, #192 ) ;
#181 = CIRCLE ( 'NONE', #31, 1.650000000000151300 ) ;
#182 = VERTEX_POINT ( 'NONE', #275 ) ;
#183 = VERTEX_POINT ( 'NONE', #276 ) ;
#184 = VERTEX_POINT ( 'NONE', #277 ) ;
#185 = FACE_OUTER_BOUND ( 'NONE', #130, .T. ) ;
#186 = FACE_OUTER_BOUND ( 'NONE', #242, .T. ) ;
#187 = FACE_OUTER_BOUND ( 'NONE', #126, .T. ) ;
#188 = FACE_OUTER_BOUND ( 'NONE', #254, .T. ) ;
#189 = VERTEX_POINT ( 'NONE', #278 ) ;
#190 = FACE_OUTER_BOUND ( 'NONE', #260, .T. ) ;
#191 = FACE_BOUND ( 'NONE', #233, .T. ) ;
#192 = VECTOR ( 'NONE', #95, 1000.000000000000000 ) ;
#193 = FACE_BOUND ( 'NONE', #257, .T. ) ;
#194 = FACE_OUTER_BOUND ( 'NONE', #123, .T. ) ;
#195 = FACE_OUTER_BOUND ( 'NONE', #255, .T. ) ;
#196 = LINE ( 'NONE', #97, #227 ) ;
#197 = CYLINDRICAL_SURFACE ( 'NONE', #30, 1.650000000000151300 ) ;
#198 = CYLINDRICAL_SURFACE ( 'NONE', #29, 1.650000000000151300 ) ;
#199 = LINE ( 'NONE', #93, #160 ) ;
#200 = LINE ( 'NONE', #71, #213 ) ;
#201 = VECTOR ( 'NONE', #81, 1000.000000000000000 ) ;
#202 = VECTOR ( 'NONE', #80, 1000.000000000000000 ) ;
#203 = VECTOR ( 'NONE', #78, 1000.000000000000000 ) ;
#204 = LINE ( 'NONE', #72, #207 ) ;
#205 = LINE ( 'NONE', #76, #210 ) ;
#206 = CIRCLE ( 'NONE', #24, 1.650000000000151300 ) ;
#207 = VECTOR ( 'NONE', #74, 1000.000000000000000 ) ;
#208 = VECTOR ( 'NONE', #269, 1000.000000000000000 ) ;
#209 = VECTOR ( 'NONE', #262, 1000.000000000000000 ) ;
#210 = VECTOR ( 'NONE', #75, 1000.000000000000000 ) ;
#211 = CIRCLE ( 'NONE', #25, 1.650000000000151300 ) ;
#212 = LINE ( 'NONE', #66, #214 ) ;
#213 = VECTOR ( 'NONE', #79, 1000.000000000000000 ) ;
#214 = VECTOR ( 'NONE', #62, 1000.000000000000000 ) ;
#215 = PERSON_AND_ORGANIZATION ( #10, #219 ) ;
#216 = LINE ( 'NONE', #61, #222 ) ;
#217 = APPROVAL_PERSON_ORGANIZATION ( #221, #20, #297 ) ;
#218 = LINE ( 'NONE', #267, #208 ) ;
#219 = ORGANIZATION ( 'Î´Ö¸¶¨', 'Î´Ö¸¶¨', '' ) ;
#220 = COORDINATED_UNIVERSAL_TIME_OFFSET ( 8, 0, .AHEAD. ) ;
#221 = PERSON_AND_ORGANIZATION ( #10, #219 ) ;
#222 = VECTOR ( 'NONE', #59, 1000.000000000000000 ) ;
#223 = ORIENTED_EDGE ( 'NONE', *, *, #51, .T. ) ;
#224 = ORIENTED_EDGE ( 'NONE', *, *, #40, .F. ) ;
#225 = ORIENTED_EDGE ( 'NONE', *, *, #37, .F. ) ;
#226 = LOCAL_TIME ( 10, 21, 59.00000000000000000, #220 ) ;
#227 = VECTOR ( 'NONE', #100, 1000.000000000000000 ) ;
#228 = ORIENTED_EDGE ( 'NONE', *, *, #38, .T. ) ;
#229 = ORIENTED_EDGE ( 'NONE', *, *, #50, .T. ) ;
#230 = APPROVAL_DATE_TIME ( #162, #305 ) ;
#231 = ORIENTED_EDGE ( 'NONE', *, *, #45, .T. ) ;
#232 = ORIENTED_EDGE ( 'NONE', *, *, #54, .T. ) ;
#233 = EDGE_LOOP ( 'NONE', ( #131, #239 ) ) ;
#234 = ORIENTED_EDGE ( 'NONE', *, *, #39, .T. ) ;
#235 = ORIENTED_EDGE ( 'NONE', *, *, #49, .T. ) ;
#236 = LINE ( 'NONE', #58, #209 ) ;
#237 = ORIENTED_EDGE ( 'NONE', *, *, #41, .T. ) ;
#238 = ORIENTED_EDGE ( 'NONE', *, *, #52, .F. ) ;
#239 = ORIENTED_EDGE ( 'NONE', *, *, #39, .F. ) ;
#240 = ORIENTED_EDGE ( 'NONE', *, *, #48, .F. ) ;
#241 = ORIENTED_EDGE ( 'NONE', *, *, #46, .T. ) ;
#242 = EDGE_LOOP ( 'NONE', ( #224, #225, #240, #129 ) ) ;
#243 = EDGE_LOOP ( 'NONE', ( #250, #125, #249, #235 ) ) ;
#244 = ORIENTED_EDGE ( 'NONE', *, *, #42, .T. ) ;
#245 = ORIENTED_EDGE ( 'NONE', *, *, #47, .T. ) ;
#246 = CLOSED_SHELL ( 'NONE', ( #7, #2, #4, #5, #1, #3, #8, #6 ) ) ;
#247 = ORIENTED_EDGE ( 'NONE', *, *, #51, .F. ) ;
#248 = ORIENTED_EDGE ( 'NONE', *, *, #54, .F. ) ;
#249 = ORIENTED_EDGE ( 'NONE', *, *, #38, .F. ) ;
#250 = ORIENTED_EDGE ( 'NONE', *, *, #37, .T. ) ;
#251 = FACE_OUTER_BOUND ( 'NONE', #243, .T. ) ;
#252 = ORIENTED_EDGE ( 'NONE', *, *, #49, .F. ) ;
#253 = ORIENTED_EDGE ( 'NONE', *, *, #40, .T. ) ;
#254 = EDGE_LOOP ( 'NONE', ( #127, #252, #122, #258 ) ) ;
#255 = EDGE_LOOP ( 'NONE', ( #232, #231, #229, #228 ) ) ;
#256 = ORIENTED_EDGE ( 'NONE', *, *, #44, .T. ) ;
#257 = EDGE_LOOP ( 'NONE', ( #128, #245 ) ) ;
#258 = ORIENTED_EDGE ( 'NONE', *, *, #43, .T. ) ;
#259 = ORIENTED_EDGE ( 'NONE', *, *, #46, .F. ) ;
#260 = EDGE_LOOP ( 'NONE', ( #247, #238, #241, #237 ) ) ;
#261 = PERSON_AND_ORGANIZATION_ROLE ( 'classification_officer' ) ;
#262 = DIRECTION ( 'NONE',  ( -0.0000000000000000000, 1.000000000000000000, -0.0000000000000000000 ) ) ;
#263 = APPROVAL_ROLE ( '' ) ;
#264 = APPROVAL_STATUS ( 'not_yet_approved' ) ;
#265 = DATE_TIME_ROLE ( 'classification_date' ) ;
#266 = DIRECTION ( 'NONE',  ( 0.0000000000000000000, 0.0000000000000000000, 1.000000000000000000 ) ) ;
#267 = CARTESIAN_POINT ( 'NONE',  ( -15.00000000000000000, -785.1153228810079600, -2165.805231443991500 ) ) ;
#268 = CARTESIAN_POINT ( 'NONE',  ( -7.500000000000000000, -785.1153228810079600, -2174.955231443991100 ) ) ;
#269 = DIRECTION ( 'NONE',  ( -0.0000000000000000000, 1.000000000000000000, -0.0000000000000000000 ) ) ;
#270 = CARTESIAN_POINT ( 'NONE',  ( -15.00000000000000000, -788.1153228810079600, -2180.805231443991000 ) ) ;
#271 = CARTESIAN_POINT ( 'NONE',  ( -7.500000000000000000, -788.1153228810079600, -2171.655231443990900 ) ) ;
#272 = CARTESIAN_POINT ( 'NONE',  ( -15.00000000000000000, -785.1153228810079600, -2165.805231443991500 ) ) ;
#273 = CARTESIAN_POINT ( 'NONE',  ( -7.500000000000000000, -788.1153228810079600, -2174.955231443991100 ) ) ;
#274 = CARTESIAN_POINT ( 'NONE',  ( 0.0000000000000000000, -785.1153228810079600, -2165.805231443991500 ) ) ;
#275 = CARTESIAN_POINT ( 'NONE',  ( 0.0000000000000000000, -788.1153228810079600, -2180.805231443991000 ) ) ;
#276 = CARTESIAN_POINT ( 'NONE',  ( -15.00000000000000000, -788.1153228810079600, -2165.805231443991500 ) ) ;
#277 = CARTESIAN_POINT ( 'NONE',  ( -15.00000000000000000, -785.1153228810079600, -2180.805231443991000 ) ) ;
#278 = CARTESIAN_POINT ( 'NONE',  ( -7.500000000000000000, -785.1153228810079600, -2171.655231443990900 ) ) ;
#279 = SECURITY_CLASSIFICATION_LEVEL ( 'unclassified' ) ;
#280 = CARTESIAN_POINT ( 'NONE',  ( 0.0000000000000000000, 0.0000000000000000000, 0.0000000000000000000 ) ) ;
#281 = DIRECTION ( 'NONE',  ( 0.0000000000000000000, 1.000000000000000000, 0.0000000000000000000 ) ) ;
#282 = CARTESIAN_POINT ( 'NONE',  ( -7.500000000000000000, -788.1153228810079600, -2173.305231443991000 ) ) ;
#283 = CARTESIAN_POINT ( 'NONE',  ( 0.0000000000000000000, -785.1153228810079600, -2180.805231443991000 ) ) ;
#284 =( LENGTH_UNIT ( ) NAMED_UNIT ( * ) SI_UNIT ( .MILLI., .METRE. ) );
#285 =( NAMED_UNIT ( * ) PLANE_ANGLE_UNIT ( ) SI_UNIT ( $, .RADIAN. ) );
#286 =( NAMED_UNIT ( * ) SI_UNIT ( $, .STERADIAN. ) SOLID_ANGLE_UNIT ( ) );
#287 = APPLICATION_PROTOCOL_DEFINITION ( 'international standard', 'config_control_design', 1994, #289 ) ;
#288 = CARTESIAN_POINT ( 'NONE',  ( 0.0000000000000000000, -788.1153228810079600, -2165.805231443991500 ) ) ;
#289 = APPLICATION_CONTEXT ( 'configuration controlled 3d designs of mechanical parts and assemblies' ) ;
#290 = DIRECTION ( 'NONE',  ( 0.0000000000000000000, 0.0000000000000000000, 1.000000000000000000 ) ) ;
#291 = DIRECTION ( 'NONE',  ( 1.000000000000000000, 0.0000000000000000000, 0.0000000000000000000 ) ) ;
#292 = MECHANICAL_CONTEXT ( 'NONE', #289, 'mechanical' ) ;
#293 = PERSON_AND_ORGANIZATION_ROLE ( 'design_owner' ) ;
#294 = APPLICATION_CONTEXT ( 'configuration controlled 3d designs of mechanical parts and assemblies' ) ;
#295 = APPLICATION_PROTOCOL_DEFINITION ( 'international standard', 'config_control_design', 1994, #294 ) ;
#296 = APPROVAL_STATUS ( 'not_yet_approved' ) ;
#297 = APPROVAL_ROLE ( '' ) ;
#298 = PERSON_AND_ORGANIZATION_ROLE ( 'creator' ) ;
#299 = DATE_TIME_ROLE ( 'creation_date' ) ;
#300 = APPROVAL_STATUS ( 'not_yet_approved' ) ;
#301 = APPROVAL_ROLE ( '' ) ;
#302 = PERSON_AND_ORGANIZATION_ROLE ( 'creator' ) ;
#303 = PERSON_AND_ORGANIZATION_ROLE ( 'design_supplier' ) ;
#304 = CC_DESIGN_PERSON_AND_ORGANIZATION_ASSIGNMENT ( #149, #261, ( #306 ) ) ;
#305 = APPROVAL ( #264, 'Î´Ö¸¶¨' ) ;
#306 = SECURITY_CLASSIFICATION ( '', '', #279 ) ;
#307 = CC_DESIGN_SECURITY_CLASSIFICATION ( #306, ( #16 ) ) ;
#308 = CC_DESIGN_PERSON_AND_ORGANIZATION_ASSIGNMENT ( #151, #303, ( #16 ) ) ;
#309 = CC_DESIGN_DATE_AND_TIME_ASSIGNMENT ( #171, #265, ( #306 ) ) ;
#310 = PRODUCT_RELATED_PRODUCT_CATEGORY ( 'detail', '', ( #9 ) ) ;
#311 = CC_DESIGN_APPROVAL ( #305, ( #306 ) ) ;
ENDSEC;
END-ISO-10303-21;
